When You Say Nothing At All Tab

Home ] Up ] Broadway Tableture ] [ When You Say Nothing At All Tab ] I'll Fly Away Tab ] Alison Krauss CDs ] No Place To Hide Tab ]

 

 

Allison Krauss - When You Say Nothing At All

Song: When You Say Nothing At All
by: Alison Krauss
Words and Music: Don Schlitz and Paul Overstreet
Tabbed by: Loomper
e-mail: loomper@hotmail.com

I took this tab from another site and made some corrections so that it would sound like the recording. 
You can e-mail me if you think itís good or bad.

*IMPORTANT*: Capo on 1st fret

(Intro)
E--------------0--------------------------------------------------------
B------------3---------3-------3-------2h3------------------------------
G----------2---------2-------0-------2----------------------------------
D--------0---------0-------0-------0------------------------------------
A-0h2--5---------0---------------0--------------------------------------
E------------------------3----------------------------------------------

Instead of strumming the 5th on the A string, you can just hit the D open, if you want it to sound 
like the recording. If you really donít care then just skip it. I just think it sounds cooler that way.

(Riff) 
E-------0--------------------------------------------------------
B-----3---------3-------3-------2h3------------------------------
G---2---------2-------0-------2----------------------------------
D-0---------0-------0-------0------------------------------------
A---------0---------------0--------------------------------------
E-----------------3----------------------------------------------


D A G A D A G A
It\'s amazing how you can speak right to my heart
D A G A D A G A
Without saying a word you can light up the dark
G A
Try as I may I could never explain
D A G A
What I hear when you don\'t say a thing

Chorus:
D A G A
The smile on your face lets me know that you need me
D A G A
There\'s a truth in your eyes saying you\'ll never leave me
D A G A G A
A touch of your hand says you\'ll catch me if ever I fall
D G A (Intro)
Now you say it best, when you say nothing at all

All day long I can hear people talking out loud
But when you hold me near you drown out the crowd
Old Mister Webster could never define
What\'s being said between your heart and mine

Chorus

Solo (I think this is right, but please let me know.)
Listen for timing.

E--------------------------------------------------------------------
B-10-10------10---10-----10------10h12p10--8--7---5-5----------------
G--------------------------------------------------------------9br---
D-------12--------11--------11---11h12p11--9--7---5-5-------12-------
A-------------------------------------------------------s12----------
E--------------------------------------------------------------------

E--------------------------------------------------------------------
B--------10p8---7-5h7--7p5-5----5h7--------------------8---8---------
G--9-----7--------------------------7-----7h9--9s11s9--9p7-7---------
D--11----9--------5----------7--------7h9--------------7--------7h9--
A--12----------------------------------------------------------------
E--------------------------------------------------------------------

E-------------------------------------------10-10h12-10------14p10---
B-------------10----10-------10-10-10-10s12--------------10----------
G-7h9-9s11-9--9-----9------------------------------------------------
D-----------------12---9h11------------------------------------------
A--------------------------------------------------------------------
E--------------------------------------------------------------------

E----------10-----
B-12p10-----------
G-------12--------
D-----------------
A-----------------
E-----------------



Music Concerts On DVD

Site Map ] Christian Tablature ] Country Tablature ] Classical Tablature ] Tablature Sites ] Tablature By Instrument ] Rock Guitar Tab ] Flash Tablature ] Jazz Tab and DVDs ] Top Quality Instruments For Cheap ] Guitar Method DVDs ] Music Videos On CDs And DVDs ]

 

For Guitar Lessons on DVD click on Guitar Lessons

For other violin flute keyboard and other tab and notes visit Instruments and Sheet Music

To purchase new and used instruments go to www.musicalinstrumentsonsale.com

A couple of great guitar tabliture sites are You Never Listen.com and Pro Guitar 

A great resource for acustic gutar players is a site called Acoustic Guitar Site

To see the best Canadian Musicians click Canadian Musicians

for violin brands go to violin brands 

Wondering which one of your favorite Actors are Canadian click Canadian Actors

For Top Quality but Cheap Guitars or Guitar Accessories click Guitar Brands and Manufacturers

The two best places for drums are Drum Heaven for drum brands and drum manufacturers and drum sets and drum tab at drumsetsandtab.com 

For the #1 spot to all your Timpani Brands or Timpani Accessories

For country music check out Country Chords and Tab

For Christian and Gospel Sheet Music try Christian and Gospel Sheet Music

Having a hard time finding Ipods?  Click here for Cheap IPods and I PodAccessories

For Trumpets, Trumpets, and more Trumpets, Click Trumpets & Trumpet Accessories

Guitar - uitar - Guiter - Guitir - Guitat - Guitare - Gutar - Gitar - Tabliture - Tablature - Tableture - Tabiture - Song Notes - Song Chords - Lyrics - Song Lyrics - Notes - Songs - Biography - Tab - Bio - Pics - Pic's - Pics' - Pictures - Picture's - Artist Info - Information - Free Guitar Tab - Jazz Music - Jazz - Jazz Tab - Jazz Chords - Jazz Notes - Rock Music - Rock - Rock Tab - Rock Chords - Rock Notes - Country Music - Country - Country Tab - Country Chords - Country Notes - Classical Music - Classical - Classical Tab - Classical Chords - Classical Notes - Heavy Metal Music - Heavy Metal - Heavy Metal Tab - Heavy Metal Chords - Heavy Notes - Rock N Roll Music - Rock N Roll - Rock N Roll Tab - Rock N Roll Chords - Rock N Roll Notes

Hosting by Web Oshawa