Freeze Chords

Home ] Up ] Rush CDs ] Rush DVDs ] [ Freeze Chords ]

 

 

Freeze Chords By Rush For Guitar

freeze - rush

Notes:

[A] Intro
N.H.----------------------------------------------|
riff A--------------------------------------------|
2 e s s e s s e s s s s e s s s s s s e
|---------------|--------------------------------------------------|
|---------------|--------------------------------------------------|
6---------------|--------------------------------------------------|
4--|=========|--|--------------------------------------------------|
|---------------|--3-----------------------------------------------|
|---------------|----x-x-2.75-x-x-2.75-x-x-x-x-2-x-x-x-x-x-x-2.75--|

[B] 1st Verse

The city crouches steaming in the early morning half-light

|---------|---------|---------------|-------------|-------------|
|---------|---------|---------------|-------------|-------------|
|---------5---------6---------------|-------------|-------------|
|----%----4----%----4-------%-------|------%------|------%------|
|---------|---------|---------------|-------------|-------------|
|---------|---------|---------------|-------------|-------------|


the sun is still a rumor and the night is still a threat

|-------------|-------------|-------------|-------------|-------------|
|-------------|-------------|-------------|-------------|-------------|
|-------------|-------------|-------------|-------------|-------------|
|------%------|------%------|------%------|------%------|------%------|
|-------------|-------------|-------------|-------------|-------------|
|-------------|-------------|-------------|-------------|-------------|

Gtr. 3 plays fill 1 twice on 2nd repeat
Rhy. Fig. 1-----------------------------|
q q e q q e q q e q q e
||----------2---2---|----------2---2---||
||----------2---2---|----------2---2---||
5|o-4---4---4---4---|--4---4---4---4--o||
4|o-2---2---2---2---|--2---2---2---2--o||
||--4---4-----------|--4---4-----------||
||--2---2-----------|--2---2-----------||

[C] 2nd Verse

Slipping through the dark streets and the echoes and the shadows
Something stirs behind me and my palms begin to

||------------------|--------------------|-------------------|------------||
||------------------|--------------------|-------------------|------------||
||o--------%--------|----------%---------|----------%--------|------%----o||
||o-----------------|--------------------|-------------------|-----------o||
||------------------|--------------------|-------------------|------------||
||------------------|--------------------|-------------------|------------||




(oh...)
q q e q q e
|--------|----------7---7---|-------------|-------------|-------------|
|--------|----------7---7---|-------------|-------------|-------------|
9----%---5--9---9---9---9---|-------------|-------------|-------------|
8--------4--7---7---7---7---|------%------|------%------|------%------|
|--------|--9---9-----------|-------------|-------------|-------------|
|--------|--7---7-----------|-------------|-------------|-------------|

%II (2nd time on D.S.II) To Coda II
[D] 1st Prechorus

Sometimes I freeze until the light comes
Sometimes I fly Into the night
Sometimes I fight against the darkness
Sometimes I'm wrong sometimes I'm right

||-----------|----------|--------------|-------------||
||-----------|----------|--------------|-------------||
||o-----%----|-----%----|-------%------|-------%----o||
||o----------|----------|--------------|------------o||
||-----------|----------|--------------|-------------||
||-----------|----------|--------------|-------------||

% (4th time on D.S.) To Coda
[E]
Gtr. 3 plays fill 2 until section [G]
Gtr. 4 (Clean) (Play 4 times)
e e e e e e q e e e e e e e e
||-----------------|-------------------||
||--------------7--|-------------------||
4|o-----7---7------|------7---7---7---o||
4|o---7---7---7----|----7---7---7---7-o||
||--5--------------|--5----------------||
||-----------------|-------------------||

[F] 1st Chorus

Coiled for the spring caught like a creature in the headlights into a
desperate panic or a tempest of blind fury
do do do do do do do do do do like a
cornered beast or a conquering hero

||------------------------|---------------|---------------|---------------||
||------------------------|---------------|---------------|---------------||
||o-----------%-----------|-------%-------|-------%-------|--------%-----o||
||o-----------------------|---------------|---------------|--------------o||
||------------------------|---------------|---------------|---------------||
||------------------------|---------------|---------------|---------------||

[G] 3rd Verse

The menace threatens closing and I'm frozen in the
not prepeared to run away and I'm not prepared to

Gtrs. 1 & 2 play riff A until section [H]
2 w w w
|-------------------||------------------|----------------|----------------|
|-------------------||------------------|----------------|----------------|
6-------------------||o-----------------|----------------|----------------|
4--|==============|-||o-----------------|----------------|----------------|
|-------------------||------------------|----------------|----------------|
|-------------------||------------------|----------------|----------------|

shadows I'm
fight I can't stand to reason or surrender to a reflex
I will trust my instincts or surrender to my fright
q q e q q e
|-----------------||----------2---2---|-----------|--------------|-------||
|-----------------||----------2---2---|-----------|--------------|-------||
|----------------o||o-4---4---4---4---|-----%-----|-------%------|---%--o||
|----------------o||o-2---2---2---2---|-----------|--------------|------o||
|-----------------||--4---4-----------|-----------|--------------|-------||
|-----------------||--2---2-----------|-----------|--------------|-------||



|--------------------------|----------------------------|
|--------------------------|----------------------------|
|------------%-------------|--------------%-------------|
|--------------------------|----------------------------|
|--------------------------|----------------------------|
|--------------------------|----------------------------|

(oh...)
q q e q q e
|----------7---7---|-------------|-------------|-------------|
|----------7---7---|-------------|-------------|-------------|
5--9---9---9---9---|-------------|-------------|-------------|
4--7---7---7---7---|------%------|------%------|------%------|
|--9---9-----------|-------------|-------------|-------------|
|--7---7-----------|-------------|-------------|-------------|

[D] 2nd Prechorus (4th time) D.S. Al Coda

Sometimes we freeze until the light comes
Sometimes we're wrong sometimes we're right
Sometimes we fight against the darkness
Sometimes we fly into the night

||-------------|----------|--------------|-------------||
||-------------|----------|--------------|-------------||
||o-----%------|-----%----|-------%------|-------%----o||
||o------------|----------|--------------|------------o||
||-------------|----------|--------------|-------------||
||-------------|----------|--------------|-------------||

(+) Coda
[J] 2nd Chorus

Blood running cold mind going down into a dark place
desperate panic or a tempest of blind fury
do do do do do do do do do do like a
cornered beast or a conquering hero

Gtr. 3 plays fill 2 until section [K]
Gtr. 4 plays Rhy. Fig. 2 until section [K]
w
||------------------------|---------------|-------------|---------||
||------------------------|---------------|-------------|---------||
||o--7--------------------|-------%-------|-----%-------|--%-----o||
||o--7--------------------|---------------|-------------|--------o||
||---5--------------------|---------------|-------------|---------||
||------------------------|---------------|-------------|---------||

[K] Interlude
Gtr. 1 pays Riff A four times
w. +w. +w. +w.
|--------------|------------|------------|------------|
|--------------|------------|------------|------------|
6--7-----------|--7---------|--7---------|--7---------|
4--7-----------|--7---------|--7---------|--7---------|
|--5-----------|--5---------|--5---------|--5---------|
|--------------|------------|------------|------------|
> >

Gtr. 1
|----------------|--------------|--------------|
|----------------|--------------|--------------|
|--------%-------5-------%------|-------%------|
|----------------4--------------|--------------|
|----------------|--------------|--------------|
|----------------|--------------|--------------|


[L]
N.H. N.H. N.H.---| N.H.
e s s e s s e s s s s e s s q e e e e s s e s s s s e s s
|---------------------------------|-----------------------------------|
|---------------------------------|-----------------------------------|
6--9-----9-----9---------9--------5--9/12--12-----12---------12-------|
4--9-----9-----9---------9--------4--9/12--12-----12---------12-------|
|--7-----7-----7---------7--------|--7/10--10-----10---------10-------|
|----0-0---0-0---0-0-0-0---0-0-0--|------10---1010---10101010---1010--|
(on 5th repeat)

Sometimes I freeze (etc...)
(play 9 times simile)
Gtr. 5 (w/dist.) plays fill 3 until section [M] on 3rd repeat
e s s e s s e s s s s e s s e e e e e s s e s s s s e s s
||---------------------------------|-----------------------------------||
||---------------------------------|-----------------------------------||
||o-9-----9-----9---------9--------5--9/12--12-----12---------12------o||
||o-9-----9-----9---------9--------4--9/12--12-----12---------12------o||
||--7-----7-----7---------7--------|--7/10--10-----10---------10-------||
||----0-0---0-0---0-0-0-0---0-0-0--|------10---1010---10101010---1010--||

[M]
(4th time) D.S.II al CodaII
Oh (play 4 times)
q q e q q e q q e q q e
||--------------------|--------------------||
||--------------------|--------------------||
||o-------------------|-------------------o||
||o-2---2----2---2----|--5---5----5---5---o||
||--2---2----2---2----|--2---2----2---2----||
||--0---0----0---0----|--3---3----3---3----||

(+)II CodaII

Oh (play 4 times)
*Into the night

q q e q q e q q e q q e
||--------------------|--------------------||
||--------------------|--------------------||
||o-------------------|-------------------o||
||o-2---2----2---2----|--5---5----5---5---o||
||--2---2----2---2----|--2---2----2---2----||
||--0---0----0---0----|--3---3----3---3----||
*=on 2nd and 4th repeats only

[N] Outro

|----------------|-----------------|----------------||
|----------------|-----------------|----------------||
|--------%-------|--------%--------|--------%-------||
|----------------|-----------------|----------------||
|----------------|-----------------|----------------||
|----------------|-----------------|----------------||


_______________________________________________________
| Fill 1 |
| |
| |-----------------------|-----------------------| |
| |-----------------------|-----------------------| |
| 5-----------------------|-----------------------| |
| 4-----------------------|-----------------------| |
| |-----------------------|-----------------------| |
| |--2-0-2-0-2-0-2-0-2-0--|--2-0-2-0-2-0-2-0-2-0--| |
| |
-------------------------------------------------------

_______________________________________________________
| Fill 2 |
| |
| |----------------------|----------------------| |
| |--8-8-10-10-8-8-10-8--|--8-8-10-10-8-8-10-8--| |
| 4--7-7-7--7--7-7-7--7--|--7-7-7--7--7-7-7--7--| |
| 4----------------------|----------------------| |
| |----------------------|----------------------| |
| |----------------------|----------------------| |
| |
-------------------------------------------------------

_______________________________________________________
| Fill 3 |
| N.H.--------------------| |
| |--5-------------------|--5-------------------| |
| |--5-------------------|--5-------------------| |
| 6----------------------5----------------------| |
| 4----------------------4----------------------| |
| |----------------------|----------------------| |
| |----------------------|----------------------| |
| tremolo pick all notes |
-------------------------------------------------------



Music Concerts On DVD

Site Map ] Christian Tablature ] Country Tablature ] Classical Tablature ] Tablature Sites ] Tablature By Instrument ] Rock Guitar Tab ] Flash Tablature ] Jazz Tab and DVDs ] Top Quality Instruments For Cheap ] Guitar Method DVDs ] Music Videos On CDs And DVDs ]

 

For Guitar Lessons on DVD click on Guitar Lessons

For other violin flute keyboard and other tab and notes visit Instruments and Sheet Music

To purchase new and used instruments go to www.musicalinstrumentsonsale.com

A couple of great guitar tabliture sites are You Never Listen.com and Pro Guitar 

A great resource for acustic gutar players is a site called Acoustic Guitar Site

To see the best Canadian Musicians click Canadian Musicians

for violin brands go to violin brands 

Wondering which one of your favorite Actors are Canadian click Canadian Actors

For Top Quality but Cheap Guitars or Guitar Accessories click Guitar Brands and Manufacturers

The two best places for drums are Drum Heaven for drum brands and drum manufacturers and drum sets and drum tab at drumsetsandtab.com 

For the #1 spot to all your Timpani Brands or Timpani Accessories

For country music check out Country Chords and Tab

For Christian and Gospel Sheet Music try Christian and Gospel Sheet Music

Having a hard time finding Ipods?  Click here for Cheap IPods and I PodAccessories

For Trumpets, Trumpets, and more Trumpets, Click Trumpets & Trumpet Accessories

Guitar - uitar - Guiter - Guitir - Guitat - Guitare - Gutar - Gitar - Tabliture - Tablature - Tableture - Tabiture - Song Notes - Song Chords - Lyrics - Song Lyrics - Notes - Songs - Biography - Tab - Bio - Pics - Pic's - Pics' - Pictures - Picture's - Artist Info - Information - Free Guitar Tab - Jazz Music - Jazz - Jazz Tab - Jazz Chords - Jazz Notes - Rock Music - Rock - Rock Tab - Rock Chords - Rock Notes - Country Music - Country - Country Tab - Country Chords - Country Notes - Classical Music - Classical - Classical Tab - Classical Chords - Classical Notes - Heavy Metal Music - Heavy Metal - Heavy Metal Tab - Heavy Metal Chords - Heavy Notes - Rock N Roll Music - Rock N Roll - Rock N Roll Tab - Rock N Roll Chords - Rock N Roll Notes

Hosting by Web Oshawa