Follow Me Tablature

Home ] Up ] [ Follow Me Tablature ] Keep It Commin Lyrics ] Uncle Cracker CDs ]

 

 

Uncle Kracker - Follow Me tab


Intro
E|--3h5--3--1----1------------1h3ı3/5----3h5--3--1---1----------1h3--1-
B|-------------3----3---1--------------------------3---3ı-1------------
G|-------------------------2---------------------------------2---------
D|---------------------------------------------------------------------
A|---------------------------------------------------------------------
E|---------------------------------------------------------------------


N.C.

You donıt know how you met me, you donıt know why
You canıt turn around and say goodbye
E# A# B#
All I know is when I when I with you I make you free
E# A# E#
And swim through your veins like a fish in the sea, Iım singinı

E# A# B#
Follow me everything is all right
E# A# B#
Iıll be the one to tuck you in at night and if you
E# A# B#
Want to leave I can guarantee
E# A# E#
You wonıt find nobody else like me

E# A# B#
Iım not worried ıbout the ring you wear
E# A# E#
ıcause as long as no one knows then nobody can care
E# A# B#
youıre feeling guilty and Iım well aware
E# A# E#
But you donıt look ashamed and baby Iım not scared, Iım singinı

E# A# B#
Follow me everything is all right
E# A# B#
Iıll be the one to tuck you in at night and if you
E# A# B#
Want to leave I can guarantee
E# A# E#
You wonıt find nobody else like me
SOLO:
E|--5-8-5/3-1-------1-1-1/3---5-8-5/3-1-------1-1-1/3---|
B|-------------3-1-----------------------3-1------------|
G|------------------------------------------------------|
D|------------------------------------------------------|
A|------------------------------------------------------|
E|------------------------------------------------------|


E|--5-8-5/3-1-------1-1-1/3---5-5-3/1-----1-1h3-1---|
B|-------------3-1---------------------3------------|
G|--------------------------------------------------|
D|--------------------------------------------------|
A|--------------------------------------------------|
E|--------------------------------------------------|

Bridge:
A# B#
Canıt give you money, I canıt give you the sky
E#
Youıre better off if you donıt ask why

A# B#
Iım not the reason that you go astray
C#
Weıll be all right if you donıt ask me to stay

E# A# B#
Follow me everything is all right
E# A# B#
Iıll be the one to tuck you in at night and if you
E# A# B#
Want to leave I can guarantee
E# A# E#
You wonıt find nobody else like me

Repeat first verse

End on E#



Music Concerts On DVD

Site Map ] Christian Tablature ] Country Tablature ] Classical Tablature ] Tablature Sites ] Tablature By Instrument ] Rock Guitar Tab ] Flash Tablature ] Jazz Tab and DVDs ] Top Quality Instruments For Cheap ] Guitar Method DVDs ] Music Videos On CDs And DVDs ]

 

For Guitar Lessons on DVD click on Guitar Lessons

For other violin flute keyboard and other tab and notes visit Instruments and Sheet Music

To purchase new and used instruments go to www.musicalinstrumentsonsale.com

A couple of great guitar tabliture sites are You Never Listen.com and Pro Guitar 

A great resource for acustic gutar players is a site called Acoustic Guitar Site

To see the best Canadian Musicians click Canadian Musicians

for violin brands go to violin brands 

Wondering which one of your favorite Actors are Canadian click Canadian Actors

For Top Quality but Cheap Guitars or Guitar Accessories click Guitar Brands and Manufacturers

The two best places for drums are Drum Heaven for drum brands and drum manufacturers and drum sets and drum tab at drumsetsandtab.com 

For the #1 spot to all your Timpani Brands or Timpani Accessories

For country music check out Country Chords and Tab

For Christian and Gospel Sheet Music try Christian and Gospel Sheet Music

Having a hard time finding Ipods?  Click here for Cheap IPods and I PodAccessories

For Trumpets, Trumpets, and more Trumpets, Click Trumpets & Trumpet Accessories

Guitar - uitar - Guiter - Guitir - Guitat - Guitare - Gutar - Gitar - Tabliture - Tablature - Tableture - Tabiture - Song Notes - Song Chords - Lyrics - Song Lyrics - Notes - Songs - Biography - Tab - Bio - Pics - Pic's - Pics' - Pictures - Picture's - Artist Info - Information - Free Guitar Tab - Jazz Music - Jazz - Jazz Tab - Jazz Chords - Jazz Notes - Rock Music - Rock - Rock Tab - Rock Chords - Rock Notes - Country Music - Country - Country Tab - Country Chords - Country Notes - Classical Music - Classical - Classical Tab - Classical Chords - Classical Notes - Heavy Metal Music - Heavy Metal - Heavy Metal Tab - Heavy Metal Chords - Heavy Notes - Rock N Roll Music - Rock N Roll - Rock N Roll Tab - Rock N Roll Chords - Rock N Roll Notes

Hosting by Web Oshawa